Partitura MH3

Ver el tema anterior Ver el tema siguiente Ir abajo

Partitura MH3

Mensaje  DarkHelm el Miér 16 Mar 2011, 17:08

Pues si alguien tiene la partitura del Tema principal (el que sale en la intro) del Monster Hunter Tri, le estaría muy agradecido si me la pasara.

Tambien me vale esta:

Spoiler:
avatar
DarkHelm

Mensajes : 35
Fecha de inscripción : 03/01/2011
Edad : 23

Ver perfil de usuario

Volver arriba Ir abajo

Re: Partitura MH3

Mensaje  Wogoru el Miér 16 Mar 2011, 18:23

Para que insteumento? Es que luego si alguien la pone, si es de flauta, la subimos

_________________

¿Qué personaje masculino de Kingdom Hearts eres?
¡Compruébalo [URL=http://khworld.webcindario.com/iceberg/?centro=testkh]AQUÍ!


El tio menos esquizofrenico del foro Roto se Rie Roto se Rie Roto se Rie Roto se Rie Roto se Rie Roto se Rie Roto se Rie Roto se Rie Roto se Rie Roto se Rie Roto se Rie Roto se Rie Roto se Rie Roto se Rie Roto se Rie Roto se Rie Roto se Rie Roto se Rie Roto se Rie Roto se Rie Roto se Rie Roto se Rie Roto se Rie Roto se Rie Roto se Rie Roto se Rie Roto se Rie Roto se Rie Roto se Rie Roto se Rie
avatar
Wogoru

Mensajes : 331
Fecha de inscripción : 23/12/2010
Edad : 19
Localización : Aldea Moga

Ver perfil de usuario

Volver arriba Ir abajo

Re: Partitura MH3

Mensaje  Anthoni el Miér 16 Mar 2011, 19:27

Ahora que lo he visto, yo la quiero para batería.

_________________
WWW.YOUTUBE.COM/USER/MongoAGaming
Gamer FriendCodes:
Monster Hunter Tri : UPDWD3
Black Ops : 0568 6142 1054
SSBB : 0645 7744 1116 (Nick, REV)
DBZ:Budokai Tenkaichi 3 : 4513 2566 8898
Mario Strikers Charged : 2279 6531 8250


Uri escribió:Jalea real no existe, son los padres.
avatar
Anthoni

Mensajes : 526
Fecha de inscripción : 05/08/2010
Edad : 21
Localización : Pontevedra (Galicia)

Ver perfil de usuario

Volver arriba Ir abajo

Re: Partitura MH3

Mensaje  DarkHelm el Miér 16 Mar 2011, 19:50

Pues para violin, pero para flauta sirve igual, si me las subieras te lo agradecería mucho.
avatar
DarkHelm

Mensajes : 35
Fecha de inscripción : 03/01/2011
Edad : 23

Ver perfil de usuario

Volver arriba Ir abajo

Re: Partitura MH3

Mensaje  Anthoni el Miér 16 Mar 2011, 21:56

Por ahora, para los interesados, he encontrado los tabs para guitarra (creo que están completos):

part one, the main theme
E----------------------------------------------------------------------------|I
B------------------------------10-----8--------------------------------------|I
G----------------------------------------10--9-----10~----10--7-9-10~-9-7-9--|I
D-7---7--9--------7--9--7----------------------------------------------------|I
A---7----------7-----------7-------------------------------------------------|I
E----------------------------------------------------------------------------|I

E----------------------------------------------------------------12--10------|~~~-I
B-------------------------------------------8-10-11---10-11-13---------------|I
G---------------7---7--9------7--9--7----------------------------------------|I
D10---9~~~~-------7---------7----------7-------------------------------------|I
A----------------------------------------------------------------------------|I
E----------------------------------------------------------------------------|I

part 2, bridge (the bit on the violins i think)
E----------------------------------------------------------------------------|I
B----------------------------------------------------------------------------|I
G----------------------------------------------------------------------------|I
D9--10^--10-9---9--7--7------------------------------------------------------|I
A-------------9--------------------------------------------------------------|I
E----------------------------------------------------------------------------|I

Sigo buscando violin y flauta.

_________________
WWW.YOUTUBE.COM/USER/MongoAGaming
Gamer FriendCodes:
Monster Hunter Tri : UPDWD3
Black Ops : 0568 6142 1054
SSBB : 0645 7744 1116 (Nick, REV)
DBZ:Budokai Tenkaichi 3 : 4513 2566 8898
Mario Strikers Charged : 2279 6531 8250


Uri escribió:Jalea real no existe, son los padres.
avatar
Anthoni

Mensajes : 526
Fecha de inscripción : 05/08/2010
Edad : 21
Localización : Pontevedra (Galicia)

Ver perfil de usuario

Volver arriba Ir abajo

Re: Partitura MH3

Mensaje  Anthoni el Miér 16 Mar 2011, 22:17

He conseguido encontrar, segun parece, la de piano, y por ahora paro:

Click Aquí


_________________
WWW.YOUTUBE.COM/USER/MongoAGaming
Gamer FriendCodes:
Monster Hunter Tri : UPDWD3
Black Ops : 0568 6142 1054
SSBB : 0645 7744 1116 (Nick, REV)
DBZ:Budokai Tenkaichi 3 : 4513 2566 8898
Mario Strikers Charged : 2279 6531 8250


Uri escribió:Jalea real no existe, son los padres.
avatar
Anthoni

Mensajes : 526
Fecha de inscripción : 05/08/2010
Edad : 21
Localización : Pontevedra (Galicia)

Ver perfil de usuario

Volver arriba Ir abajo

Re: Partitura MH3

Mensaje  elrito96 el Jue 17 Mar 2011, 16:07

No estoy seguro,pero por mis 2 años de clases de musica escuchando y analizando audiciones,es una orquesta sinfonica con flauta,un monton de violines,platillos,familia de las trompetas etc....y auque encuentres partitura para que te suene bien necesitaras por lo menos otros 5 amigos que toque algun instrumento

_________________
Animes vistos:

-Bleach(Ya me he cansado del relleno asi que me olvido de ella).
-Fairy Tail(en emision,me gusta bastante).
-Full Metal Alchemist.
-Tengen Toppa Gurren-Lagann.
-Code Geass (2 temporadas)
-To love-ru( mas la secuela Truble : Motto to love Ru)
-Bokusatsu Tenshi Dokuro-Chan(2 temporadas).
-Claymore.
-Highschool of the dead.
-Working!!
-Great teacher onizuka.
-Ikkitousen(las 4 temporadas).
-Death note.
-Afro Samurai.
-Soul Eater.
-Green Green.
-Trigun.
-Sekirei(2 temporadas).
-Lucky Star.
-Angel Beats!.
-Sora no Otoshimono(2 temporadas).
-M.M.
-Kemeko Deluxe.
-Kanokon.
-Bakuman.
-Deadman Wonderland.
-Gantz(y estoy siguiendo el manga,el primero que leo.)
-Hayate the Combat Butler.
-Elfen Lied.
-School Days.
-Tales of the abyss.
avatar
elrito96

Mensajes : 837
Fecha de inscripción : 15/11/2010
Edad : 21
Localización : En algun lugar del himalaya

Ver perfil de usuario http://www.foromonsterhunter.com/t3027-el-senor-rito-se-prese

Volver arriba Ir abajo

Re: Partitura MH3

Mensaje  Anthoni el Jue 17 Mar 2011, 16:11

Si puedo yo me animo y subo mi version del tema en batería y la juntamos con otro que haga flauta y/o violin Very Happy

_________________
WWW.YOUTUBE.COM/USER/MongoAGaming
Gamer FriendCodes:
Monster Hunter Tri : UPDWD3
Black Ops : 0568 6142 1054
SSBB : 0645 7744 1116 (Nick, REV)
DBZ:Budokai Tenkaichi 3 : 4513 2566 8898
Mario Strikers Charged : 2279 6531 8250


Uri escribió:Jalea real no existe, son los padres.
avatar
Anthoni

Mensajes : 526
Fecha de inscripción : 05/08/2010
Edad : 21
Localización : Pontevedra (Galicia)

Ver perfil de usuario

Volver arriba Ir abajo

Re: Partitura MH3

Mensaje  yupi el Lun 21 Mar 2011, 22:36

Anthoni escribió:Por ahora, para los interesados, he encontrado los tabs para guitarra (creo que están completos):

part one, the main theme
E----------------------------------------------------------------------------|I
B------------------------------10-----8--------------------------------------|I
G----------------------------------------10--9-----10~----10--7-9-10~-9-7-9--|I
D-7---7--9--------7--9--7----------------------------------------------------|I
A---7----------7-----------7-------------------------------------------------|I
E----------------------------------------------------------------------------|I

E----------------------------------------------------------------12--10------|~~~-I
B-------------------------------------------8-10-11---10-11-13---------------|I
G---------------7---7--9------7--9--7----------------------------------------|I
D10---9~~~~-------7---------7----------7-------------------------------------|I
A----------------------------------------------------------------------------|I
E----------------------------------------------------------------------------|I

part 2, bridge (the bit on the violins i think)
E----------------------------------------------------------------------------|I
B----------------------------------------------------------------------------|I
G----------------------------------------------------------------------------|I
D9--10^--10-9---9--7--7------------------------------------------------------|I
A-------------9--------------------------------------------------------------|I
E----------------------------------------------------------------------------|I

Sigo buscando violin y flauta.


fuck yeah!!!! lo estaba buscando ^^
avatar
yupi

Mensajes : 231
Fecha de inscripción : 06/07/2010

Ver perfil de usuario

Volver arriba Ir abajo

Re: Partitura MH3

Mensaje  Wooky el Lun 21 Mar 2011, 22:47

eso creo que lo sabia laken, a ver si aparece por aqui
avatar
Wooky

Mensajes : 1349
Fecha de inscripción : 16/05/2010
Edad : 23

Ver perfil de usuario http://www.foromonsterhunter.com/t146p150-wooky-rc-300#106247

Volver arriba Ir abajo

Re: Partitura MH3

Mensaje  JMVSS el Mar 22 Mar 2011, 08:51

Alguien tiene la de guitarra? xD
Quiero convertir el tema de mh3 en metal! xD

_________________
JMVSS
RC: 241
Región: PAL
Clan Head & Kill
Caballero Wyvern/Gladiador de Loc Lac
Yo hice el post 1000 en Guías y Manuales

Si aturdir es un arte, yo soy un artista


L RULZ By: JMVSS:8a22:314f:c9a5:bcca:83c0:21f4:03d9:aa00:5805:e290:62e8:


Sí una foto muy simple, pero me mola porque la he hecho yo xD

Records:

Jhen Mohran solo 12:13 (El primero de europa)
Video del solo 12:38 mio http://www.youtube.com/watch?v=dyHh6P258lk&feature=related
Jho: 1:36
Alatreon: 2:10
Jhen 2 personas: 12:10
Jho solo: 19:39
Megatreon: 6:10 (Sin estrategia)
Bari+alos: 1.24 Speedrun
Gigajho: 3:24
Jhen+ solo 18:45 (el 2 del mundo)
Video part1 Jhen+ solo mio http://www.youtube.com/watch?v=2H9_A7HIfDQ
Video part2 Jhen+ Solo mio http://www.youtube.com/watch?v=C2ryk12hfWI
avatar
JMVSS

Mensajes : 440
Fecha de inscripción : 02/11/2010
Edad : 18
Localización : Alicante

Ver perfil de usuario http://www.foromonsterhunter.com/t3430-actualizado-jmvss-rc-8

Volver arriba Ir abajo

Re: Partitura MH3

Mensaje  Ozzy el Mar 22 Mar 2011, 14:08

JMVSS escribió:Alguien tiene la de guitarra? xD
Quiero convertir el tema de mh3 en metal! xD
+9999999999999999999999999999999999999999999999999999999999999999999999999

Lo que pasa es que habría que borrar varias pistas de instrumentos eh Javi,si tú controlas de eso dime how xD

_________________

Made in the Underworld by VTK
El padrino tenebroso by ACL:

By Uri:


avatar
Ozzy

Mensajes : 903
Fecha de inscripción : 12/08/2010
Edad : 21
Localización : Rockanrroleando en lo más oscuro de las tinieblas...

Ver perfil de usuario http://www.foromonsterhunter.com/t3211-actualizadoozzy-rc-130

Volver arriba Ir abajo

Re: Partitura MH3

Mensaje  neko malkavian el Miér 23 Mar 2011, 19:31

yo cuando consiga violin intentare "traducirla"...soy bueno pilkando canciones a oido...con la guitarra ya tengo el tema de aeris (ff7),o son do ar (luar na lubre),el himno de la alegria,duvet (opening de serial experiment lain,por boa),simple and clean (op kingdom hearts,de utada hikaru) y el tema de the legend of zelda

e provado la partitura y no esta mal,pero no me convence del todo...creo que con guitarra solista es imposible

_________________
avatar
neko malkavian

Mensajes : 537
Fecha de inscripción : 01/10/2010
Edad : 25
Localización : Zaragoza

Ver perfil de usuario

Volver arriba Ir abajo

Re: Partitura MH3

Mensaje  Contenido patrocinado


Contenido patrocinado


Volver arriba Ir abajo

Ver el tema anterior Ver el tema siguiente Volver arriba

- Temas similares

 
Permisos de este foro:
No puedes responder a temas en este foro.